0
SECTION
2
HEADER
999
*** POWERPCB  HEADER ***
9
$EXTMIN
10
-10.8553246667
20
-9.0810746667
9
$EXTMAX
10
43.1499993333
20
15.1499993333
9
$FILLMODE
70
0
9
$GRIDMODE
70
1
9
$GRIDUNIT
10
2.54
20
2.54
9
$INSBASE
10
50.8
20
76.2
9
$LIMCHECK
70
0
9
$PLINEWID
40
0.0254
9
$SNAPMODE
70
1
9
$SNAPUNIT
10
0.635
20
0.635
9
$TEXTSIZE
40
2.54
9
$TEXTSTYLE
7
W0$254
9
$USERI1
70
101
9
$USERI2
70
0
9
$USERI5
70
150
9
$VIEWCTR
10
16.1473366667
20
3.034462
0
ENDSEC
0
SECTION
2
TABLES
999
*** POWERPCB  LTYPE ***
0
TABLE
2
LTYPE
70
1
0
LTYPE
2
CONTINUOUS
70
64
3
---
72
65
73
0
40
0
0
LTYPE
2
TRMIDX_8192
70
64
3
---
72
65
73
2
40
2
49
1
49
1
0
ENDTAB
999
*** POWERPCB  LAYER ***
0
TABLE
2
LAYER
70
31
0
LAYER
2
DBLAYERS
70
1
62
-6
6
CONTINUOUS
0
LAYER
2
2D_LINE_26
70
0
62
2
6
CONTINUOUS
0
LAYER
2
2D_LINE_00
70
0
62
1
6
CONTINUOUS
0
LAYER
2
DIMENSION7_26
70
0
62
6
6
CONTINUOUS
0
LAYER
2
DIMENSION1_26
70
0
62
6
6
CONTINUOUS
0
LAYER
2
DIMENSION3_26
70
0
62
6
6
CONTINUOUS
0
LAYER
2
DIMENSION4_26
70
0
62
6
6
CONTINUOUS
0
LAYER
2
DIMENSION5_26
70
0
62
6
6
CONTINUOUS
0
LAYER
2
DIMENSION6_26
70
0
62
6
6
CONTINUOUS
0
LAYER
2
TEXT_26
70
0
62
2
6
CONTINUOUS
0
LAYER
2
DIMENSION2_26
70
0
62
6
6
CONTINUOUS
0
LAYER
2
LABEL_INFO
70
1
62
-6
6
CONTINUOUS
0
LAYER
2
LABEL_ATTRIBUTE
70
1
62
-6
6
CONTINUOUS
0
LAYER
2
PART_NAME_26
70
0
62
2
6
CONTINUOUS
0
LAYER
2
ATTRIBUTE_26
70
0
62
2
6
CONTINUOUS
0
LAYER
2
PART_TYPE_TOP
70
1
62
-250
6
CONTINUOUS
0
LAYER
2
PART_INFO
70
1
62
-6
6
CONTINUOUS
0
LAYER
2
PART_PTS
70
1
62
-6
6
CONTINUOUS
0
LAYER
2
SYM_NAME
70
1
62
-6
6
CONTINUOUS
0
LAYER
2
SYM_ATTRIBUTE_26
70
1
62
-6
6
CONTINUOUS
0
LAYER
2
SYM_PART_NAME_26
70
1
62
-6
6
CONTINUOUS
0
LAYER
2
SYM_TERMINAL
70
1
62
-6
6
CONTINUOUS
0
LAYER
2
PKG_INFO
70
1
62
-6
6
CONTINUOUS
0
LAYER
2
PART_TOP_2DLINE_26
70
0
62
2
6
CONTINUOUS
0
LAYER
2
DRIL_PLTE_THRU_01
70
0
62
16
6
CONTINUOUS
0
LAYER
2
DRIL_PLTE_THRU_02
70
0
62
176
6
CONTINUOUS
0
LAYER
2
PADS_INNER
70
0
62
1
6
CONTINUOUS
0
LAYER
2
PADS_BOT
70
0
62
5
6
CONTINUOUS
0
LAYER
2
PADS_TOP
70
0
62
1
6
CONTINUOUS
0
LAYER
2
PCB_PARAMS
70
1
62
-6
6
CONTINUOUS
0
LAYER
2
DRIL_SYMBOL
70
0
62
6
6
CONTINUOUS
0
ENDTAB
999
*** POWERPCB  TEXT STYLE ***
0
TABLE
2
STYLE
70
5
0
STYLE
2
W0$1524
70
64
40
0
41
0.75
42
0
50
0
71
0
3
simplex
0
STYLE
2
W0$0999993333
70
64
40
0
41
0.75
42
0
50
0
71
0
3
simplex
0
STYLE
2
W0$1016
70
64
40
0
41
0.75
42
0
50
0
71
0
3
simplex
0
STYLE
2
W0$127R0
70
64
40
0
41
0.75
42
0
50
0
71
0
3
simplex
0
STYLE
2
W0$254
70
64
40
0
41
0.75
42
0
50
0
71
0
3
simplex
0
ENDTAB
0
ENDSEC
0
SECTION
2
BLOCKS
999
*** POWERPCB  DBLAYER ***
0
BLOCK
2
DBLAYERS
8
0
10
0
20
0
3
DBLAYERS
70
64
0
TEXT
8
DBLAYERS
10
0
20
-3.048
40
1.778
1
__It__Is__Job__Name__:=Untitled
999
 *  1.Number             2.Type                  3.RouteColor
999
 *  4.ViaColor           5.PadColor              6.CopperColor
999
 *  7.2DLineColor        8.TextColor             9.ErrorColor
999
 * 10.TopComponentColor 11.BottomComponentColor 12.RoutingDirection
999
 * 13.LayerThickness    14.CopperThickness      15.Dielectric
999
 * 16.IsRouteable       17.IsVisible            18.IsSelectable
999
 * 19.IsPrepreg         20.AssSilkScreen        21.AssPasteMask
999
 * 22.AssSolderMask     23.AssAssembly
0
TEXT
8
DBLAYERS
10
0
20
-6.096
40
1.778
1
Top:=1 1 12 12 12 12 12 12 12 12 12 0 0 53340 4.8000001907 1 1 1 0 26 23 21 -1 0 0 1 12 12 12 12 
0
TEXT
8
DBLAYERS
10
0
20
-9.144
40
1.778
1
Solder Mask Top:=21 5 5 5 5 5 5 5 5 5 5 2 0 0 0 0 1 1 0 -1 -1 -1 -1 0 0 0 5 5 5 5 
0
TEXT
8
DBLAYERS
10
0
20
-12.192
40
1.778
1
Drill Drawing:=24 2 12 12 12 12 12 12 12 12 12 2 0 0 0 0 1 1 0 -1 -1 -1 -1 0 0 0 12 12 12 12 
0
TEXT
8
DBLAYERS
10
0
20
-15.24
40
1.778
1
Silkscreen Top:=26 3 14 14 14 14 14 14 14 14 14 2 0 0 0 0 1 1 0 -1 -1 -1 -1 0 0 0 14 14 14 14 
0
ENDBLK
999
*** POWERPCB  BOARD ***
999
*** POWERPCB  2DLINE ***
0
BLOCK
2
DRAWING_1
8
0
10
0
20
0
3
DRAWING_1
70
64
0
POLYLINE
8
2D_LINE_26
66
1
40
0.2999993333
41
0.2999993333
70
1
0
VERTEX
8
2D_LINE_26
10
0
20
0
0
VERTEX
8
2D_LINE_26
10
0
20
15
0
VERTEX
8
2D_LINE_26
10
-43
20
15
0
VERTEX
8
2D_LINE_26
10
-43
20
0
0
SEQEND
0
INSERT
2
SMOOTH_0$2999993333
8
2D_LINE_26
10
0
20
0
0
INSERT
2
SMOOTH_0$2999993333
8
2D_LINE_26
10
0
20
15
0
INSERT
2
SMOOTH_0$2999993333
8
2D_LINE_26
10
-43
20
15
0
INSERT
2
SMOOTH_0$2999993333
8
2D_LINE_26
10
-43
20
0
0
ENDBLK
0
BLOCK
2
DRAWING_2
8
0
10
0
20
0
3
DRAWING_2
70
64
0
POLYLINE
8
2D_LINE_00
66
1
40
0.254
41
0.254
70
1
0
VERTEX
8
2D_LINE_00
10
50.8
20
76.2
0
VERTEX
8
2D_LINE_00
10
50.8
20
91.2
0
VERTEX
8
2D_LINE_00
10
93.8
20
91.2
0
VERTEX
8
2D_LINE_00
10
93.8
20
76.2
0
SEQEND
0
INSERT
2
SMOOTH_0$254
8
2D_LINE_00
10
50.8
20
76.2
0
INSERT
2
SMOOTH_0$254
8
2D_LINE_00
10
50.8
20
91.2
0
INSERT
2
SMOOTH_0$254
8
2D_LINE_00
10
93.8
20
91.2
0
INSERT
2
SMOOTH_0$254
8
2D_LINE_00
10
93.8
20
76.2
0
ENDBLK
0
BLOCK
2
D_4daefgh_3
8
0
10
0
20
0
3
D_4daefgh_3
70
64
0
POLYLINE
8
DIMENSION7_26
6
TRMIDX_8192
66
1
40
0.0254
41
0.0254
0
VERTEX
8
DIMENSION7_26
10
2.0249993333
20
0
0
VERTEX
8
DIMENSION7_26
10
2.0249993333
20
0.0006666667
0
SEQEND
0
POLYLINE
8
DIMENSION7_26
6
TRMIDX_8192
66
1
40
0.0254
41
0.0254
0
VERTEX
8
DIMENSION7_26
10
4.1999986667
20
12.5
0
VERTEX
8
DIMENSION7_26
10
4.1999986667
20
12.5006666667
0
SEQEND
0
POLYLINE
8
DIMENSION1_26
6
TRMIDX_8192
66
1
40
0.254
41
0.254
0
VERTEX
8
DIMENSION1_26
10
0
20
0
0
VERTEX
8
DIMENSION1_26
10
0
20
12.5
0
SEQEND
0
POLYLINE
8
DIMENSION3_26
6
TRMIDX_8192
66
1
40
0.254
41
0.254
0
VERTEX
8
DIMENSION3_26
10
0.508
20
1.524
0
VERTEX
8
DIMENSION3_26
10
0
20
0
0
VERTEX
8
DIMENSION3_26
10
-0.5079993333
20
1.524
0
SEQEND
0
POLYLINE
8
DIMENSION4_26
6
TRMIDX_8192
66
1
40
0.254
41
0.254
0
VERTEX
8
DIMENSION4_26
10
0.508
20
10.976
0
VERTEX
8
DIMENSION4_26
10
0
20
12.5
0
VERTEX
8
DIMENSION4_26
10
-0.5079993333
20
10.976
0
SEQEND
0
POLYLINE
8
DIMENSION5_26
6
TRMIDX_8192
66
1
40
0.254
41
0.254
0
VERTEX
8
DIMENSION5_26
10
1.7709993333
20
0
0
VERTEX
8
DIMENSION5_26
10
-0.254
20
0
0
SEQEND
0
POLYLINE
8
DIMENSION6_26
6
TRMIDX_8192
66
1
40
0.254
41
0.254
0
VERTEX
8
DIMENSION6_26
10
3.9459986667
20
12.5
0
VERTEX
8
DIMENSION6_26
10
-0.2539993333
20
12.5
0
SEQEND
0
TEXT
8
TEXT_26
10
-1.35
20
4.9249986667
40
1.0668
1
12.50
50
90
41
0.75
7
W0$1524
0
ENDBLK
0
BLOCK
2
D_4daefgh_4
8
0
10
0
20
0
3
D_4daefgh_4
70
64
0
POLYLINE
8
DIMENSION7_26
6
TRMIDX_8192
66
1
40
0.0254
41
0.0254
0
VERTEX
8
DIMENSION7_26
10
2.249998
20
0
0
VERTEX
8
DIMENSION7_26
10
2.249998
20
0.0006666667
0
SEQEND
0
POLYLINE
8
DIMENSION7_26
6
TRMIDX_8192
66
1
40
0.0254
41
0.0254
0
VERTEX
8
DIMENSION7_26
10
9.1999993333
20
2.5
0
VERTEX
8
DIMENSION7_26
10
9.1999993333
20
2.5006666667
0
SEQEND
0
POLYLINE
8
DIMENSION1_26
6
TRMIDX_8192
66
1
40
0.254
41
0.254
0
VERTEX
8
DIMENSION1_26
10
0
20
0
0
VERTEX
8
DIMENSION1_26
10
0
20
2.5
0
SEQEND
0
POLYLINE
8
DIMENSION3_26
6
TRMIDX_8192
66
1
40
0.254
41
0.254
0
VERTEX
8
DIMENSION3_26
10
0.508
20
1.524
0
VERTEX
8
DIMENSION3_26
10
0
20
0
0
VERTEX
8
DIMENSION3_26
10
-0.5079993333
20
1.524
0
SEQEND
0
POLYLINE
8
DIMENSION4_26
6
TRMIDX_8192
66
1
40
0.254
41
0.254
0
VERTEX
8
DIMENSION4_26
10
0.508
20
0.976
0
VERTEX
8
DIMENSION4_26
10
0
20
2.5
0
VERTEX
8
DIMENSION4_26
10
-0.5079993333
20
0.976
0
SEQEND
0
POLYLINE
8
DIMENSION5_26
6
TRMIDX_8192
66
1
40
0.254
41
0.254
0
VERTEX
8
DIMENSION5_26
10
1.995998
20
0
0
VERTEX
8
DIMENSION5_26
10
-0.254
20
0
0
SEQEND
0
POLYLINE
8
DIMENSION6_26
6
TRMIDX_8192
66
1
40
0.254
41
0.254
0
VERTEX
8
DIMENSION6_26
10
8.9459993333
20
2.5
0
VERTEX
8
DIMENSION6_26
10
-0.2539993333
20
2.5
0
SEQEND
0
TEXT
8
TEXT_26
10
-1.2000006667
20
0.6749993333
40
1.0668
1
2.50
50
90
41
0.75
7
W0$1524
0
ENDBLK
0
BLOCK
2
D_4daefgh_5
8
0
10
0
20
0
3
D_4daefgh_5
70
64
0
POLYLINE
8
DIMENSION7_26
6
TRMIDX_8192
66
1
40
0.0254
41
0.0254
0
VERTEX
8
DIMENSION7_26
10
0
20
2.6499993333
0
VERTEX
8
DIMENSION7_26
10
0
20
2.650666
0
SEQEND
0
POLYLINE
8
DIMENSION7_26
6
TRMIDX_8192
66
1
40
0.0254
41
0.0254
0
VERTEX
8
DIMENSION7_26
10
3.9999993333
20
2.8999986667
0
VERTEX
8
DIMENSION7_26
10
3.9999993333
20
2.9006653333
0
SEQEND
0
POLYLINE
8
DIMENSION1_26
6
TRMIDX_8192
66
1
40
0.254
41
0.254
0
VERTEX
8
DIMENSION1_26
10
0
20
0
0
VERTEX
8
DIMENSION1_26
10
3.9999993333
20
0
0
SEQEND
0
POLYLINE
8
DIMENSION3_26
6
TRMIDX_8192
66
1
40
0.254
41
0.254
0
VERTEX
8
DIMENSION3_26
10
1.5239993333
20
-0.508
0
VERTEX
8
DIMENSION3_26
10
0
20
0
0
VERTEX
8
DIMENSION3_26
10
1.5239993333
20
0.5079993333
0
SEQEND
0
POLYLINE
8
DIMENSION4_26
6
TRMIDX_8192
66
1
40
0.254
41
0.254
0
VERTEX
8
DIMENSION4_26
10
2.4759993333
20
-0.508
0
VERTEX
8
DIMENSION4_26
10
3.9999993333
20
0
0
VERTEX
8
DIMENSION4_26
10
2.4759993333
20
0.5079993333
0
SEQEND
0
POLYLINE
8
DIMENSION5_26
6
TRMIDX_8192
66
1
40
0.254
41
0.254
0
VERTEX
8
DIMENSION5_26
10
0
20
2.3959993333
0
VERTEX
8
DIMENSION5_26
10
0
20
-0.254
0
SEQEND
0
POLYLINE
8
DIMENSION6_26
6
TRMIDX_8192
66
1
40
0.254
41
0.254
0
VERTEX
8
DIMENSION6_26
10
3.9999993333
20
2.6459986667
0
VERTEX
8
DIMENSION6_26
10
3.9999993333
20
-0.254
0
SEQEND
0
TEXT
8
TEXT_26
10
-3.2500013333
20
-3.1000013333
40
1.0668
1
4.00
41
0.75
7
W0$1524
0
ENDBLK
0
BLOCK
2
D_4defghi_6
8
0
10
0
20
0
3
D_4defghi_6
70
64
0
POLYLINE
8
DIMENSION7_26
6
TRMIDX_8192
66
1
40
0.0254
41
0.0254
0
VERTEX
8
DIMENSION7_26
10
0.000002
20
2.6999993333
0
VERTEX
8
DIMENSION7_26
10
0.000002
20
2.700666
0
SEQEND
0
POLYLINE
8
DIMENSION7_26
6
TRMIDX_8192
66
1
40
0.0254
41
0.0254
0
VERTEX
8
DIMENSION7_26
10
34.0000026667
20
6.15
0
VERTEX
8
DIMENSION7_26
10
34.0000026667
20
6.1506666667
0
SEQEND
0
POLYLINE
8
DIMENSION1_26
6
TRMIDX_8192
66
1
40
0.254
41
0.254
0
VERTEX
8
DIMENSION1_26
10
0.000002
20
0
0
VERTEX
8
DIMENSION1_26
10
15.0315026667
20
0
0
SEQEND
0
POLYLINE
8
DIMENSION2_26
6
TRMIDX_8192
66
1
40
0.254
41
0.254
0
VERTEX
8
DIMENSION2_26
10
34.0000026667
20
0
0
VERTEX
8
DIMENSION2_26
10
18.9685026667
20
0
0
SEQEND
0
POLYLINE
8
DIMENSION3_26
6
TRMIDX_8192
66
1
40
0.254
41
0.254
0
VERTEX
8
DIMENSION3_26
10
1.524002
20
-0.508
0
VERTEX
8
DIMENSION3_26
10
0.000002
20
0
0
VERTEX
8
DIMENSION3_26
10
1.524002
20
0.5079993333
0
SEQEND
0
POLYLINE
8
DIMENSION4_26
6
TRMIDX_8192
66
1
40
0.254
41
0.254
0
VERTEX
8
DIMENSION4_26
10
32.4760026667
20
-0.508
0
VERTEX
8
DIMENSION4_26
10
34.0000026667
20
0
0
VERTEX
8
DIMENSION4_26
10
32.4760026667
20
0.5079993333
0
SEQEND
0
POLYLINE
8
DIMENSION5_26
6
TRMIDX_8192
66
1
40
0.254
41
0.254
0
VERTEX
8
DIMENSION5_26
10
0.000002
20
2.4459993333
0
VERTEX
8
DIMENSION5_26
10
0.000002
20
-0.254
0
SEQEND
0
POLYLINE
8
DIMENSION6_26
6
TRMIDX_8192
66
1
40
0.254
41
0.254
0
VERTEX
8
DIMENSION6_26
10
34.0000026667
20
5.896
0
VERTEX
8
DIMENSION6_26
10
34.0000026667
20
-0.254
0
SEQEND
0
TEXT
8
TEXT_26
10
15.2855026667
20
-0.5715
40
1.0668
1
34.00
41
0.75
7
W0$1524
0
ENDBLK
0
BLOCK
2
D_4daefgh_7
8
0
10
0
20
0
3
D_4daefgh_7
70
64
0
POLYLINE
8
DIMENSION7_26
6
TRMIDX_8192
66
1
40
0.0254
41
0.0254
0
VERTEX
8
DIMENSION7_26
10
0
20
2.6999993333
0
VERTEX
8
DIMENSION7_26
10
0
20
2.700666
0
SEQEND
0
POLYLINE
8
DIMENSION7_26
6
TRMIDX_8192
66
1
40
0.0254
41
0.0254
0
VERTEX
8
DIMENSION7_26
10
5
20
6.15
0
VERTEX
8
DIMENSION7_26
10
5
20
6.1506666667
0
SEQEND
0
POLYLINE
8
DIMENSION1_26
6
TRMIDX_8192
66
1
40
0.254
41
0.254
0
VERTEX
8
DIMENSION1_26
10
0
20
0
0
VERTEX
8
DIMENSION1_26
10
5
20
0
0
SEQEND
0
POLYLINE
8
DIMENSION3_26
6
TRMIDX_8192
66
1
40
0.254
41
0.254
0
VERTEX
8
DIMENSION3_26
10
1.5239993333
20
-0.508
0
VERTEX
8
DIMENSION3_26
10
0
20
0
0
VERTEX
8
DIMENSION3_26
10
1.5239993333
20
0.5079993333
0
SEQEND
0
POLYLINE
8
DIMENSION4_26
6
TRMIDX_8192
66
1
40
0.254
41
0.254
0
VERTEX
8
DIMENSION4_26
10
3.476
20
-0.508
0
VERTEX
8
DIMENSION4_26
10
5
20
0
0
VERTEX
8
DIMENSION4_26
10
3.476
20
0.5079993333
0
SEQEND
0
POLYLINE
8
DIMENSION5_26
6
TRMIDX_8192
66
1
40
0.254
41
0.254
0
VERTEX
8
DIMENSION5_26
10
0
20
2.4459993333
0
VERTEX
8
DIMENSION5_26
10
0
20
-0.254
0
SEQEND
0
POLYLINE
8
DIMENSION6_26
6
TRMIDX_8192
66
1
40
0.254
41
0.254
0
VERTEX
8
DIMENSION6_26
10
5
20
5.896
0
VERTEX
8
DIMENSION6_26
10
5
20
-0.254
0
SEQEND
0
TEXT
8
TEXT_26
10
1.875
20
-3.2499986667
40
1.0668
1
5.00
41
0.75
7
W0$1524
0
ENDBLK
0
BLOCK
2
D_4defghi_8
8
0
10
0
20
0
3
D_4defghi_8
70
64
0
POLYLINE
8
DIMENSION7_26
6
TRMIDX_8192
66
1
40
0.0254
41
0.0254
0
VERTEX
8
DIMENSION7_26
10
0.1250006667
20
8.0999986667
0
VERTEX
8
DIMENSION7_26
10
0.1250006667
20
8.1006653333
0
SEQEND
0
POLYLINE
8
DIMENSION7_26
6
TRMIDX_8192
66
1
40
0.0254
41
0.0254
0
VERTEX
8
DIMENSION7_26
10
43.1250013333
20
8.0999986667
0
VERTEX
8
DIMENSION7_26
10
43.1250013333
20
8.1006653333
0
SEQEND
0
POLYLINE
8
DIMENSION1_26
6
TRMIDX_8192
66
1
40
0.254
41
0.254
0
VERTEX
8
DIMENSION1_26
10
0.1250006667
20
0
0
VERTEX
8
DIMENSION1_26
10
17.6302733333
20
0
0
SEQEND
0
POLYLINE
8
DIMENSION2_26
6
TRMIDX_8192
66
1
40
0.254
41
0.254
0
VERTEX
8
DIMENSION2_26
10
43.1250013333
20
0
0
VERTEX
8
DIMENSION2_26
10
25.619728
20
0
0
SEQEND
0
POLYLINE
8
DIMENSION3_26
6
TRMIDX_8192
66
1
40
0.254
41
0.254
0
VERTEX
8
DIMENSION3_26
10
1.6490006667
20
-0.508
0
VERTEX
8
DIMENSION3_26
10
0.1250006667
20
0
0
VERTEX
8
DIMENSION3_26
10
1.6490006667
20
0.508
0
SEQEND
0
POLYLINE
8
DIMENSION4_26
6
TRMIDX_8192
66
1
40
0.254
41
0.254
0
VERTEX
8
DIMENSION4_26
10
41.6010013333
20
-0.508
0
VERTEX
8
DIMENSION4_26
10
43.1250013333
20
0
0
VERTEX
8
DIMENSION4_26
10
41.6010013333
20
0.508
0
SEQEND
0
POLYLINE
8
DIMENSION5_26
6
TRMIDX_8192
66
1
40
0.254
41
0.254
0
VERTEX
8
DIMENSION5_26
10
0.1250006667
20
7.8459986667
0
VERTEX
8
DIMENSION5_26
10
0.1250006667
20
-0.254
0
SEQEND
0
POLYLINE
8
DIMENSION6_26
6
TRMIDX_8192
66
1
40
0.254
41
0.254
0
VERTEX
8
DIMENSION6_26
10
43.1250013333
20
7.8459986667
0
VERTEX
8
DIMENSION6_26
10
43.1250013333
20
-0.254
0
SEQEND
0
TEXT
8
TEXT_26
10
17.884274
20
-0.5715
40
1.0668
1
43.00 (mm)
41
0.75
7
W0$1524
0
ENDBLK
0
BLOCK
2
D_4defghi_9
8
0
10
0
20
0
3
D_4defghi_9
70
64
0
POLYLINE
8
DIMENSION7_26
6
TRMIDX_8192
66
1
40
0.0254
41
0.0254
0
VERTEX
8
DIMENSION7_26
10
10.16
20
3.81
0
VERTEX
8
DIMENSION7_26
10
10.16
20
3.8106666667
0
SEQEND
0
POLYLINE
8
DIMENSION7_26
6
TRMIDX_8192
66
1
40
0.0254
41
0.0254
0
VERTEX
8
DIMENSION7_26
10
10.16
20
18.81
0
VERTEX
8
DIMENSION7_26
10
10.16
20
18.8106666667
0
SEQEND
0
POLYLINE
8
DIMENSION1_26
6
TRMIDX_8192
66
1
40
0.254
41
0.254
0
VERTEX
8
DIMENSION1_26
10
0
20
3.81
0
VERTEX
8
DIMENSION1_26
10
0
20
7.471136
0
SEQEND
0
POLYLINE
8
DIMENSION2_26
6
TRMIDX_8192
66
1
40
0.254
41
0.254
0
VERTEX
8
DIMENSION2_26
10
0
20
18.81
0
VERTEX
8
DIMENSION2_26
10
0
20
15.1488633333
0
SEQEND
0
POLYLINE
8
DIMENSION3_26
6
TRMIDX_8192
66
1
40
0.254
41
0.254
0
VERTEX
8
DIMENSION3_26
10
0.508
20
5.334
0
VERTEX
8
DIMENSION3_26
10
0
20
3.81
0
VERTEX
8
DIMENSION3_26
10
-0.5079993333
20
5.334
0
SEQEND
0
POLYLINE
8
DIMENSION4_26
6
TRMIDX_8192
66
1
40
0.254
41
0.254
0
VERTEX
8
DIMENSION4_26
10
0.508
20
17.286
0
VERTEX
8
DIMENSION4_26
10
0
20
18.81
0
VERTEX
8
DIMENSION4_26
10
-0.5079993333
20
17.286
0
SEQEND
0
POLYLINE
8
DIMENSION5_26
6
TRMIDX_8192
66
1
40
0.254
41
0.254
0
VERTEX
8
DIMENSION5_26
10
9.906
20
3.81
0
VERTEX
8
DIMENSION5_26
10
-0.2539993333
20
3.81
0
SEQEND
0
POLYLINE
8
DIMENSION6_26
6
TRMIDX_8192
66
1
40
0.254
41
0.254
0
VERTEX
8
DIMENSION6_26
10
9.906
20
18.81
0
VERTEX
8
DIMENSION6_26
10
-0.2539993333
20
18.81
0
SEQEND
0
TEXT
8
TEXT_26
10
0.5715
20
7.725136
40
1.0668
1
15.00 (mm)
50
90
41
0.75
7
W0$1524
0
ENDBLK
999
*** POWERPCB  COMPONENT ***
0
BLOCK
2
PART_TOP_0
8
0
10
0
20
0
3
PART_TOP_0
70
64
0
INSERT
2
SYM_TOP_3
8
0
10
0
20
0
0
INSERT
2
PKG_0
8
0
10
0
20
0
0
TEXT
8
LABEL_INFO
10
-2.1043973333
20
2.6053993333
40
0.4445
1
0 0 0 0 0 1
41
0.75
7
W0$1016
0
TEXT
8
LABEL_ATTRIBUTE
10
-2.1043973333
20
2.6053993333
40
0.4445
1
Ref.Des.
41
0.75
7
W0$1016
0
TEXT
8
PART_NAME_26
10
-2.1043973333
20
2.6053993333
40
0.4445
1
$$$1
41
0.75
7
W0$1016
0
TEXT
8
LABEL_INFO
10
-1.3334973333
20
-3.8735
40
0.4445
1
0 0 0 0 0 0
41
0.75
7
W0$1016
0
TEXT
8
LABEL_ATTRIBUTE
10
-1.3334973333
20
-3.8735
40
0.4445
1
Comment
41
0.75
7
W0$1016
0
TEXT
8
ATTRIBUTE_26
10
-1.3334973333
20
-3.8735
40
0.4445
1
Header 2
41
0.75
7
W0$1016
0
TEXT
8
PART_TYPE_TOP
10
-1.3334973333
20
-4.5085
40
0.4445
1
HEADER_2
41
0.75
7
W0$1016
0
TEXT
8
PART_INFO
10
-1.3334973333
20
-5.1435
40
0.4445
1
000100
41
0.75
7
W0$1016
0
TEXT
8
PART_PTS
10
-1.3334973333
20
-5.7785
40
0.4445
1
1 
41
0.75
7
W0$1016
0
ENDBLK
0
BLOCK
2
PART_TOP_1
8
0
10
0
20
0
3
PART_TOP_1
70
64
0
INSERT
2
SYM_TOP_3
8
0
10
0
20
0
0
INSERT
2
PKG_0
8
0
10
0
20
0
0
TEXT
8
LABEL_INFO
10
-2.0938006667
20
2.6053993333
40
0.4445
1
0 0 0 0 0 1
41
0.75
7
W0$1016
0
TEXT
8
LABEL_ATTRIBUTE
10
-2.0938006667
20
2.6053993333
40
0.4445
1
Ref.Des.
41
0.75
7
W0$1016
0
TEXT
8
PART_NAME_26
10
-2.0938006667
20
2.6053993333
40
0.4445
1
$$$2
41
0.75
7
W0$1016
0
TEXT
8
LABEL_INFO
10
-1.3335
20
-3.8735
40
0.4445
1
0 0 0 0 0 0
41
0.75
7
W0$1016
0
TEXT
8
LABEL_ATTRIBUTE
10
-1.3335
20
-3.8735
40
0.4445
1
Comment
41
0.75
7
W0$1016
0
TEXT
8
ATTRIBUTE_26
10
-1.3335
20
-3.8735
40
0.4445
1
Header 2
41
0.75
7
W0$1016
0
TEXT
8
PART_TYPE_TOP
10
-1.3335
20
-4.5085
40
0.4445
1
HEADER_2
41
0.75
7
W0$1016
0
TEXT
8
PART_INFO
10
-1.3335
20
-5.1435
40
0.4445
1
000100
41
0.75
7
W0$1016
0
TEXT
8
PART_PTS
10
-1.3335
20
-5.7785
40
0.4445
1
1 
41
0.75
7
W0$1016
0
ENDBLK
0
BLOCK
2
PART_TOP_2
8
0
10
0
20
0
3
PART_TOP_2
70
64
0
INSERT
2
SYM_TOP_4
8
0
10
0
20
0
0
INSERT
2
PKG_1
8
0
10
0
20
0
0
TEXT
8
LABEL_INFO
10
4.8
20
2.9500013333
40
0.4445
1
0 486000000 0 0 0 1
50
270
41
0.75
7
W0$1016
0
TEXT
8
LABEL_ATTRIBUTE
10
4.8
20
2.9500013333
40
0.4445
1
Ref.Des.
50
270
41
0.75
7
W0$1016
0
TEXT
8
PART_NAME_26
10
4.8
20
2.9500013333
40
0.4445
1
CN1
50
270
41
0.75
7
W0$1016
0
TEXT
8
LABEL_INFO
10
-3.2893
20
0.7493
40
0.4445
1
0 486000000 0 0 0 0
50
270
41
0.75
7
W0$1016
0
TEXT
8
LABEL_ATTRIBUTE
10
-3.2893
20
0.7493
40
0.4445
1
Comment
50
270
41
0.75
7
W0$1016
0
TEXT
8
ATTRIBUTE_26
10
-3.2893
20
0.7493
40
0.4445
1
12512WR-5B
50
270
41
0.75
7
W0$1016
0
TEXT
8
PART_TYPE_TOP
10
-3.2893
20
0.1143
40
0.4445
1
HEADER_5
50
270
41
0.75
7
W0$1016
0
TEXT
8
PART_INFO
10
-3.2893
20
-0.5207
40
0.4445
1
000100
50
270
41
0.75
7
W0$1016
0
TEXT
8
PART_PTS
10
-3.2893
20
-1.1557
40
0.4445
1
1 2 3 4 5 
50
270
41
0.75
7
W0$1016
0
ENDBLK
0
BLOCK
2
PART_TOP_3
8
0
10
0
20
0
3
PART_TOP_3
70
64
0
INSERT
2
SYM_TOP_5
8
0
10
0
20
0
0
INSERT
2
PKG_2
8
0
10
0
20
0
0
TEXT
8
LABEL_INFO
10
3.55
20
-3.299998
40
0.4445
1
0 162000000 0 0 0 1
50
90
41
0.75
7
W0$1016
0
TEXT
8
LABEL_ATTRIBUTE
10
3.55
20
-3.299998
40
0.4445
1
Ref.Des.
50
90
41
0.75
7
W0$1016
0
TEXT
8
PART_NAME_26
10
3.55
20
-3.299998
40
0.4445
1
IR
50
90
41
0.75
7
W0$1016
0
TEXT
8
LABEL_INFO
10
10.4013
20
-3.1877
40
0.4445
1
0 162000000 0 0 0 0
50
90
41
0.75
7
W0$1016
0
TEXT
8
LABEL_ATTRIBUTE
10
10.4013
20
-3.1877
40
0.4445
1
Comment
50
90
41
0.75
7
W0$1016
0
TEXT
8
ATTRIBUTE_26
10
10.4013
20
-3.1877
40
0.4445
1
IR
50
90
41
0.75
7
W0$1016
0
TEXT
8
PART_TYPE_TOP
10
10.4013
20
-3.8227
40
0.4445
1
HEADER_3
50
90
41
0.75
7
W0$1016
0
TEXT
8
PART_INFO
10
10.4013
20
-4.4577
40
0.4445
1
000100
50
90
41
0.75
7
W0$1016
0
TEXT
8
PART_PTS
10
10.4013
20
-5.0927
40
0.4445
1
1 2 3 
50
90
41
0.75
7
W0$1016
0
ENDBLK
0
BLOCK
2
PART_TOP_4
8
0
10
0
20
0
3
PART_TOP_4
70
64
0
INSERT
2
SYM_TOP_6
8
0
10
0
20
0
0
INSERT
2
PKG_3
8
0
10
0
20
0
0
TEXT
8
LABEL_INFO
10
3.125
20
1.2499973333
40
0.4445
1
0 486000000 0 0 0 1
50
270
41
0.75
7
W0$1016
0
TEXT
8
LABEL_ATTRIBUTE
10
3.125
20
1.2499973333
40
0.4445
1
Ref.Des.
50
270
41
0.75
7
W0$1016
0
TEXT
8
PART_NAME_26
10
3.125
20
1.2499973333
40
0.4445
1
LED
50
270
41
0.75
7
W0$1016
0
TEXT
8
LABEL_INFO
10
-6.2611
20
1.7144973333
40
0.4445
1
0 486000000 0 0 0 0
50
270
41
0.75
7
W0$1016
0
TEXT
8
LABEL_ATTRIBUTE
10
-6.2611
20
1.7144973333
40
0.4445
1
Comment
50
270
41
0.75
7
W0$1016
0
TEXT
8
ATTRIBUTE_26
10
-6.2611
20
1.7144973333
40
0.4445
1
LED_3P
50
270
41
0.75
7
W0$1016
0
TEXT
8
PART_TYPE_TOP
10
-6.2611
20
1.0794973333
40
0.4445
1
LED_BI-COLOUR
50
270
41
0.75
7
W0$1016
0
TEXT
8
PART_INFO
10
-6.2611
20
0.4444973333
40
0.4445
1
000100
50
270
41
0.75
7
W0$1016
0
TEXT
8
PART_PTS
10
-6.2611
20
-0.1905026667
40
0.4445
1
1 2 3 
50
270
41
0.75
7
W0$1016
0
ENDBLK
0
BLOCK
2
SYM_TOP_3
8
0
10
0
20
0
3
SYM_TOP_3
70
64
0
TEXT
8
SYM_NAME
10
0
20
0
40
1.778
1
MTHOLE1
41
0.75
0
TEXT
8
SYM_ATTRIBUTE_26
10
-2.038098
20
2.2413
40
0.889
1
Comment
41
0.75
7
W0$127R0
0
TEXT
8
SYM_PART_NAME_26
10
-2.038098
20
3.5113
40
0.889
1
 
41
0.75
7
W0$127R0
0
INSERT
2
PART_BODY_TOP_11
8
0
10
0
20
0
0
INSERT
2
STK_TOP_3
8
0
10
0.000002
20
0
0
TEXT
8
SYM_TERMINAL
10
0
20
-3.048
40
1.778
1
1
0
ENDBLK
0
BLOCK
2
PKG_0
8
0
10
0
20
0
3
PKG_0
70
64
0
TEXT
8
PKG_INFO
10
0
20
0
40
1.778
1
*SYM:= 3
0
TEXT
8
PKG_INFO
10
0
20
-3.048
40
1.778
1
*PKG:= 0 HEADER_2 UND
0
TEXT
8
PKG_INFO
10
0
20
-6.096
40
1.778
1
*GATE:=0
0
TEXT
8
PKG_INFO
10
0
20
-9.144
40
1.778
1
*GATEPIN:= 0 5 1 <>
0
ENDBLK
0
BLOCK
2
SYM_TOP_4
8
0
10
0
20
0
3
SYM_TOP_4
70
64
0
TEXT
8
SYM_NAME
10
0
20
0
40
1.778
1
MHDR1X5
41
0.75
0
TEXT
8
SYM_ATTRIBUTE_26
10
-1
20
1.2032
40
0.889
1
Comment
41
0.75
7
W0$127R0
0
TEXT
8
SYM_PART_NAME_26
10
-1
20
2.4732
40
0.889
1
 
41
0.75
7
W0$127R0
0
INSERT
2
PART_BODY_TOP_12
8
0
10
0
20
0
0
INSERT
2
STK_TOP_4
8
0
10
0
20
0
0
TEXT
8
SYM_TERMINAL
10
0
20
-3.048
40
1.778
1
1
0
INSERT
2
STK_TOP_5
8
0
10
1.27
20
0
0
TEXT
8
SYM_TERMINAL
10
0
20
-6.096
40
1.778
1
2
0
INSERT
2
STK_TOP_5
8
0
10
2.54
20
0
0
TEXT
8
SYM_TERMINAL
10
0
20
-9.144
40
1.778
1
3
0
INSERT
2
STK_TOP_5
8
0
10
3.81
20
0
0
TEXT
8
SYM_TERMINAL
10
0
20
-12.192
40
1.778
1
4
0
INSERT
2
STK_TOP_5
8
0
10
5.08
20
0
0
TEXT
8
SYM_TERMINAL
10
0
20
-15.24
40
1.778
1
5
0
ENDBLK
0
BLOCK
2
PKG_1
8
0
10
0
20
0
3
PKG_1
70
64
0
TEXT
8
PKG_INFO
10
0
20
0
40
1.778
1
*SYM:= 4
0
TEXT
8
PKG_INFO
10
0
20
-3.048
40
1.778
1
*PKG:= 0 HEADER_5 UND
0
TEXT
8
PKG_INFO
10
0
20
-6.096
40
1.778
1
*GATE:=0
0
TEXT
8
PKG_INFO
10
0
20
-9.144
40
1.778
1
*GATEPIN:= 0 5 1 <>
0
TEXT
8
PKG_INFO
10
0
20
-12.192
40
1.778
1
*GATEPIN:= 0 5 2 <>
0
TEXT
8
PKG_INFO
10
0
20
-15.24
40
1.778
1
*GATEPIN:= 0 5 3 <>
0
TEXT
8
PKG_INFO
10
0
20
-18.288
40
1.778
1
*GATEPIN:= 0 5 4 <>
0
TEXT
8
PKG_INFO
10
0
20
-21.336
40
1.778
1
*GATEPIN:= 0 5 5 <>
0
ENDBLK
0
BLOCK
2
SYM_TOP_5
8
0
10
0
20
0
3
SYM_TOP_5
70
64
0
TEXT
8
SYM_NAME
10
0
20
0
40
1.778
1
KSM200XTN2N_MODIFY
41
0.75
0
TEXT
8
SYM_ATTRIBUTE_26
10
-3.34
20
2.6311486667
40
0.889
1
Comment
41
0.75
7
W0$127R0
0
TEXT
8
SYM_PART_NAME_26
10
-3.34
20
3.9011486667
40
0.889
1
 
41
0.75
7
W0$127R0
0
INSERT
2
PART_BODY_TOP_13
8
0
10
0
20
0
0
INSERT
2
STK_TOP_6
8
0
10
-2.54
20
-7.2219993333
0
TEXT
8
SYM_TERMINAL
10
0
20
-3.048
40
1.778
1
1
0
INSERT
2
STK_TOP_6
8
0
10
0
20
-7.2219993333
0
TEXT
8
SYM_TERMINAL
10
0
20
-6.096
40
1.778
1
2
0
INSERT
2
STK_TOP_6
8
0
10
2.35
20
-7.2000006667
0
TEXT
8
SYM_TERMINAL
10
0
20
-9.144
40
1.778
1
3
0
ENDBLK
0
BLOCK
2
PKG_2
8
0
10
0
20
0
3
PKG_2
70
64
0
TEXT
8
PKG_INFO
10
0
20
0
40
1.778
1
*SYM:= 5
0
TEXT
8
PKG_INFO
10
0
20
-3.048
40
1.778
1
*PKG:= 0 HEADER_3 UND
0
TEXT
8
PKG_INFO
10
0
20
-6.096
40
1.778
1
*GATE:=0
0
TEXT
8
PKG_INFO
10
0
20
-9.144
40
1.778
1
*GATEPIN:= 0 5 1 <>
0
TEXT
8
PKG_INFO
10
0
20
-12.192
40
1.778
1
*GATEPIN:= 0 5 2 <>
0
TEXT
8
PKG_INFO
10
0
20
-15.24
40
1.778
1
*GATEPIN:= 0 5 3 <>
0
ENDBLK
0
BLOCK
2
SYM_TOP_6
8
0
10
0
20
0
3
SYM_TOP_6
70
64
0
TEXT
8
SYM_NAME
10
0
20
0
40
1.778
1
LED_3PAAA
41
0.75
0
TEXT
8
SYM_ATTRIBUTE_26
10
-1.969998
20
4.383196
40
0.889
1
Comment
41
0.75
7
W0$127R0
0
TEXT
8
SYM_PART_NAME_26
10
-1.969998
20
5.653196
40
0.889
1
 
41
0.75
7
W0$127R0
0
INSERT
2
PART_BODY_TOP_14
8
0
10
0
20
0
0
INSERT
2
STK_TOP_7
8
0
10
0
20
-2.540002
0
TEXT
8
SYM_TERMINAL
10
0
20
-3.048
40
1.778
1
1
0
INSERT
2
STK_TOP_8
8
0
10
0
20
-0.040002
0
TEXT
8
SYM_TERMINAL
10
0
20
-6.096
40
1.778
1
2
0
INSERT
2
STK_TOP_7
8
0
10
0
20
2.4599973333
0
TEXT
8
SYM_TERMINAL
10
0
20
-9.144
40
1.778
1
3
0
ENDBLK
0
BLOCK
2
PKG_3
8
0
10
0
20
0
3
PKG_3
70
64
0
TEXT
8
PKG_INFO
10
0
20
0
40
1.778
1
*SYM:= 6
0
TEXT
8
PKG_INFO
10
0
20
-3.048
40
1.778
1
*PKG:= 0 LED_BI-COLOUR UND
0
TEXT
8
PKG_INFO
10
0
20
-6.096
40
1.778
1
*GATE:=0
0
TEXT
8
PKG_INFO
10
0
20
-9.144
40
1.778
1
*GATEPIN:= 0 5 1 <>
0
TEXT
8
PKG_INFO
10
0
20
-12.192
40
1.778
1
*GATEPIN:= 0 5 2 <>
0
TEXT
8
PKG_INFO
10
0
20
-15.24
40
1.778
1
*GATEPIN:= 0 5 3 <>
0
ENDBLK
0
BLOCK
2
PART_BODY_TOP_11
8
0
10
0
20
0
3
PART_BODY_TOP_11
70
64
0
POLYLINE
8
PART_TOP_2DLINE_26
66
1
40
0.254
41
0.254
70
1
0
VERTEX
8
PART_TOP_2DLINE_26
10
1.270002
20
0
42
1
0
VERTEX
8
PART_TOP_2DLINE_26
10
-1.269998
20
0
42
1
0
SEQEND
0
ENDBLK
0
BLOCK
2
STK_TOP_3
8
0
10
0
20
0
3
STK_TOP_3
70
64
0
INSERT
2
DRIL_HOLE_3$9999993333
8
DRIL_PLTE_THRU_01
10
0
20
0
0
INSERT
2
DRIL_HOLE_3$9999993333
8
DRIL_PLTE_THRU_02
10
0
20
0
0
INSERT
2
PAD_0
8
PADS_INNER
10
0
20
0
0
INSERT
2
PAD_0
8
PADS_BOT
10
0
20
0
0
INSERT
2
PAD_0
8
PADS_TOP
10
0
20
0
0
ENDBLK
0
BLOCK
2
PART_BODY_TOP_12
8
0
10
0
20
0
3
PART_BODY_TOP_12
70
64
0
POLYLINE
8
PART_TOP_2DLINE_26
66
1
40
0.1999993333
41
0.1999993333
70
1
0
VERTEX
8
PART_TOP_2DLINE_26
10
5.9800006667
20
0.9000006667
0
VERTEX
8
PART_TOP_2DLINE_26
10
5.9800006667
20
-0.9000006667
0
VERTEX
8
PART_TOP_2DLINE_26
10
-0.9000006667
20
-0.9000006667
0
VERTEX
8
PART_TOP_2DLINE_26
10
-0.9000006667
20
0.9000006667
0
SEQEND
0
INSERT
2
SMOOTH_0$1999993333
8
PART_TOP_2DLINE_26
10
5.9800006667
20
0.9000006667
0
INSERT
2
SMOOTH_0$1999993333
8
PART_TOP_2DLINE_26
10
5.9800006667
20
-0.9000006667
0
INSERT
2
SMOOTH_0$1999993333
8
PART_TOP_2DLINE_26
10
-0.9000006667
20
-0.9000006667
0
INSERT
2
SMOOTH_0$1999993333
8
PART_TOP_2DLINE_26
10
-0.9000006667
20
0.9000006667
0
ENDBLK
0
BLOCK
2
STK_TOP_4
8
0
10
0
20
0
3
STK_TOP_4
70
64
0
INSERT
2
DRIL_HOLE_0$5999986667
8
DRIL_PLTE_THRU_01
10
0
20
0
0
INSERT
2
DRIL_HOLE_0$5999986667
8
DRIL_PLTE_THRU_02
10
0
20
0
0
INSERT
2
PAD_1
8
PADS_INNER
10
0
20
0
0
INSERT
2
PAD_1
8
PADS_BOT
10
0
20
0
0
INSERT
2
PAD_1
8
PADS_TOP
10
0
20
0
0
ENDBLK
0
BLOCK
2
STK_TOP_5
8
0
10
0
20
0
3
STK_TOP_5
70
64
0
INSERT
2
DRIL_HOLE_0$5999986667
8
DRIL_PLTE_THRU_01
10
0
20
0
0
INSERT
2
DRIL_HOLE_0$5999986667
8
DRIL_PLTE_THRU_02
10
0
20
0
0
INSERT
2
PAD_2
8
PADS_INNER
10
0
20
0
0
INSERT
2
PAD_2
8
PADS_BOT
10
0
20
0
0
INSERT
2
PAD_2
8
PADS_TOP
10
0
20
0
0
ENDBLK
0
BLOCK
2
PART_BODY_TOP_13
8
0
10
0
20
0
3
PART_BODY_TOP_13
70
64
0
POLYLINE
8
PART_TOP_2DLINE_26
66
1
40
0.1999
41
0.1999
70
1
0
VERTEX
8
PART_TOP_2DLINE_26
10
2.1000006667
20
-0.0219986667
42
1
0
VERTEX
8
PART_TOP_2DLINE_26
10
-2.1000006667
20
-0.0219986667
42
1
0
SEQEND
0
POLYLINE
8
PART_TOP_2DLINE_26
66
1
40
0.1999
41
0.1999
70
1
0
VERTEX
8
PART_TOP_2DLINE_26
10
2.35
20
-4.572
0
VERTEX
8
PART_TOP_2DLINE_26
10
-2.35
20
-4.572
0
VERTEX
8
PART_TOP_2DLINE_26
10
-2.35
20
2.3279986667
0
VERTEX
8
PART_TOP_2DLINE_26
10
2.35
20
2.3279986667
0
SEQEND
0
INSERT
2
SMOOTH_0$1999
8
PART_TOP_2DLINE_26
10
2.35
20
-4.572
0
INSERT
2
SMOOTH_0$1999
8
PART_TOP_2DLINE_26
10
-2.35
20
-4.572
0
INSERT
2
SMOOTH_0$1999
8
PART_TOP_2DLINE_26
10
-2.35
20
2.3279986667
0
INSERT
2
SMOOTH_0$1999
8
PART_TOP_2DLINE_26
10
2.35
20
2.3279986667
0
POLYLINE
8
PART_TOP_2DLINE_26
66
1
40
0.1999
41
0.1999
0
VERTEX
8
PART_TOP_2DLINE_26
10
2.0000006667
20
-0.0219986667
0
VERTEX
8
PART_TOP_2DLINE_26
10
-2.0000006667
20
-0.0219986667
0
SEQEND
0
INSERT
2
SMOOTH_0$1999
8
PART_TOP_2DLINE_26
10
2.0000006667
20
-0.0219986667
0
INSERT
2
SMOOTH_0$1999
8
PART_TOP_2DLINE_26
10
-2.0000006667
20
-0.0219986667
0
POLYLINE
8
PART_TOP_2DLINE_26
66
1
40
0.1999
41
0.1999
0
VERTEX
8
PART_TOP_2DLINE_26
10
0
20
-2.0719993333
0
VERTEX
8
PART_TOP_2DLINE_26
10
0
20
1.9279993333
0
SEQEND
0
INSERT
2
SMOOTH_0$1999
8
PART_TOP_2DLINE_26
10
0
20
-2.0719993333
0
INSERT
2
SMOOTH_0$1999
8
PART_TOP_2DLINE_26
10
0
20
1.9279993333
0
ENDBLK
0
BLOCK
2
STK_TOP_6
8
0
10
0
20
0
3
STK_TOP_6
70
64
0
INSERT
2
DRIL_HOLE_0$8500006667
8
DRIL_PLTE_THRU_01
10
0
20
0
0
INSERT
2
DRIL_HOLE_0$8500006667
8
DRIL_PLTE_THRU_02
10
0
20
0
0
INSERT
2
PAD_3
8
PADS_INNER
10
0
20
0
0
INSERT
2
PAD_3
8
PADS_BOT
10
0
20
0
0
INSERT
2
PAD_3
8
PADS_TOP
10
0
20
0
0
ENDBLK
0
BLOCK
2
PART_BODY_TOP_14
8
0
10
0
20
0
3
PART_BODY_TOP_14
70
64
0
POLYLINE
8
PART_TOP_2DLINE_26
66
1
40
0.2999993333
41
0.2999993333
0
VERTEX
8
PART_TOP_2DLINE_26
10
2.4449986667
20
2.404996
0
VERTEX
8
PART_TOP_2DLINE_26
10
0.8200006667
20
4.0299966667
0
VERTEX
8
PART_TOP_2DLINE_26
10
-1.8099986667
20
4.0299966667
0
SEQEND
0
INSERT
2
SMOOTH_0$2999993333
8
PART_TOP_2DLINE_26
10
2.4449986667
20
2.404996
0
INSERT
2
SMOOTH_0$2999993333
8
PART_TOP_2DLINE_26
10
0.8200006667
20
4.0299966667
0
INSERT
2
SMOOTH_0$2999993333
8
PART_TOP_2DLINE_26
10
-1.8099986667
20
4.0299966667
0
POLYLINE
8
PART_TOP_2DLINE_26
66
1
40
0.2999993333
41
0.2999993333
0
VERTEX
8
PART_TOP_2DLINE_26
10
-1.8199986667
20
-3.820002
0
VERTEX
8
PART_TOP_2DLINE_26
10
2.39
20
-3.820002
0
VERTEX
8
PART_TOP_2DLINE_26
10
2.39
20
-1.530002
0
SEQEND
0
INSERT
2
SMOOTH_0$2999993333
8
PART_TOP_2DLINE_26
10
-1.8199986667
20
-3.820002
0
INSERT
2
SMOOTH_0$2999993333
8
PART_TOP_2DLINE_26
10
2.39
20
-3.820002
0
INSERT
2
SMOOTH_0$2999993333
8
PART_TOP_2DLINE_26
10
2.39
20
-1.530002
0
ENDBLK
0
BLOCK
2
STK_TOP_7
8
0
10
0
20
0
3
STK_TOP_7
70
64
0
INSERT
2
DRIL_HOLE_0$95
8
DRIL_PLTE_THRU_01
10
0
20
0
0
INSERT
2
DRIL_HOLE_0$95
8
DRIL_PLTE_THRU_02
10
0
20
0
0
INSERT
2
PAD_4
8
PADS_INNER
10
0
20
0
0
INSERT
2
PAD_5
8
PADS_BOT
10
0
20
0
0
INSERT
2
PAD_5
8
PADS_TOP
10
0
20
0
0
ENDBLK
0
BLOCK
2
STK_TOP_8
8
0
10
0
20
0
3
STK_TOP_8
70
64
0
INSERT
2
DRIL_HOLE_0$95
8
DRIL_PLTE_THRU_01
10
0
20
0
0
INSERT
2
DRIL_HOLE_0$95
8
DRIL_PLTE_THRU_02
10
0
20
0
0
INSERT
2
PAD_4
8
PADS_INNER
10
0
20
0
0
INSERT
2
PAD_5
8
PADS_BOT
10
0
20
0
0
INSERT
2
PAD_6
8
PADS_TOP
10
0
20
0
0
ENDBLK
999
*** POWERPCB  PCB PARAMETER ***
0
BLOCK
2
PCB_PARAMS
8
0
10
0
20
0
3
PCB_PARAMS
70
64
999
 *  1.Job name           2.Backupfile name       3.CursorType
999
 *  4.TearDropFlag       5.HighlighNetsFlag      6.HatchDisplayFlag
999
 *  7.PadsFlag           8.TracksFlag            9.ViasFlag
999
 * 10.CopperFlag        11.LinesFlag            12.TextFlag
999
 * 13.TopComponentFlag  14.BottomComponentFlag  16.ObjectSnapFlags
0
TEXT
8
PCB_PARAMS
10
0
20
-3.048
40
1.778
1
A:=Untitled <> 5 1 0 1 1 1 1 1 1 1 1 1 0 502 0
999
 *  1.RefDesHeight       2.RefDesWidth           3.DefaultWidth
999
 *  4.VGX                5.VGY                   6.OVR
999
 *  7.HatchGrid          8.ObjectSnapRadius
0
TEXT
8
PCB_PARAMS
10
0
20
-6.096
40
1.778
1
B:=2.54 0.254 0.3048 0.635 0.635 0.0762 1.27 0.635
999
 *  1.ScaleFactor        2.NetAttributeFlags     3.BackupInterval
999
 *  4.WorkingLevel       5.HatchMode             6.HatchDirection
999
 *  7.ConnectionColor    8.BackgroundColor       9.ForegroundColor
999
 * 10.BoardOutlineColor
0
TEXT
8
PCB_PARAMS
10
0
20
-9.144
40
1.778
1
C:=15.8028860092 10002 20 2 0 0 3 0 13 13
999
 * MitreAngle0 - MitreAngle6
0
TEXT
8
PCB_PARAMS
10
0
20
-12.192
40
1.778
1
D:=324000000 324000000 324000000 324000000 324000000 324000000 324000000
999
 * Hatch & Keepout Parameters
0
TEXT
8
PCB_PARAMS
10
0
20
-15.24
40
1.778
1
E:=0.5 0 0 2.54 0 1
999
 * Fanout Parameters
0
TEXT
8
PCB_PARAMS
10
0
20
-18.288
40
1.778
1
F:=0.635 0.635 6.35 1 2 0 1 1 0 0 1 1 1 1
999
 * Pad Entry Parameters
0
TEXT
8
PCB_PARAMS
10
0
20
-21.336
40
1.778
1
P:= 1 1 1 1
999
 * DFF Parameters
0
TEXT
8
PCB_PARAMS
10
0
20
-24.384
40
1.778
1
Q:=89.9999 3967 114300 114300 114300 5 4 114300 114300 114300 114300 1 114300 1 114300 1 114300 0
0
ENDBLK
0
BLOCK
2
DRIL_SYMBOL_3$9999993333
8
0
10
0
20
0
3
DRIL_SYMBOL_3$9999993333
70
64
0
POLYLINE
8
DRIL_SYMBOL
66
1
40
0.0508
41
0.0508
0
VERTEX
8
DRIL_SYMBOL
10
0
20
-0.254
0
VERTEX
8
DRIL_SYMBOL
10
0
20
0.254
0
SEQEND
0
POLYLINE
8
DRIL_SYMBOL
66
1
40
0.0508
41
0.0508
0
VERTEX
8
DRIL_SYMBOL
10
-0.254
20
0
0
VERTEX
8
DRIL_SYMBOL
10
0.254
20
0
0
SEQEND
0
ENDBLK
0
BLOCK
2
DRIL_SYMBOL_0$5999986667
8
0
10
0
20
0
3
DRIL_SYMBOL_0$5999986667
70
64
0
POLYLINE
8
DRIL_SYMBOL
66
1
40
0.0508
41
0.0508
0
VERTEX
8
DRIL_SYMBOL
10
0
20
-0.254
0
VERTEX
8
DRIL_SYMBOL
10
0
20
0.254
0
SEQEND
0
POLYLINE
8
DRIL_SYMBOL
66
1
40
0.0508
41
0.0508
0
VERTEX
8
DRIL_SYMBOL
10
-0.254
20
0
0
VERTEX
8
DRIL_SYMBOL
10
0.254
20
0
0
SEQEND
0
ENDBLK
0
BLOCK
2
DRIL_SYMBOL_0$8500006667
8
0
10
0
20
0
3
DRIL_SYMBOL_0$8500006667
70
64
0
POLYLINE
8
DRIL_SYMBOL
66
1
40
0.0508
41
0.0508
0
VERTEX
8
DRIL_SYMBOL
10
0
20
-0.254
0
VERTEX
8
DRIL_SYMBOL
10
0
20
0.254
0
SEQEND
0
POLYLINE
8
DRIL_SYMBOL
66
1
40
0.0508
41
0.0508
0
VERTEX
8
DRIL_SYMBOL
10
-0.254
20
0
0
VERTEX
8
DRIL_SYMBOL
10
0.254
20
0
0
SEQEND
0
ENDBLK
0
BLOCK
2
DRIL_SYMBOL_0$95
8
0
10
0
20
0
3
DRIL_SYMBOL_0$95
70
64
0
POLYLINE
8
DRIL_SYMBOL
66
1
40
0.0508
41
0.0508
0
VERTEX
8
DRIL_SYMBOL
10
0
20
-0.254
0
VERTEX
8
DRIL_SYMBOL
10
0
20
0.254
0
SEQEND
0
POLYLINE
8
DRIL_SYMBOL
66
1
40
0.0508
41
0.0508
0
VERTEX
8
DRIL_SYMBOL
10
-0.254
20
0
0
VERTEX
8
DRIL_SYMBOL
10
0.254
20
0
0
SEQEND
0
ENDBLK
999
*** POWERPCB  SMOOTH CIRCLE ***
0
BLOCK
2
SMOOTH_0$2999993333
8
0
10
0
20
0
3
SMOOTH_0$2999993333
70
64
0
POLYLINE
8
0
66
1
40
0.1499993333
41
0.1499993333
70
1
0
VERTEX
8
0
10
-0.0749993333
20
0
42
1
0
VERTEX
8
0
10
0.0749993333
20
0
42
1
0
SEQEND
0
ENDBLK
0
BLOCK
2
SMOOTH_0$254
8
0
10
0
20
0
3
SMOOTH_0$254
70
64
0
POLYLINE
8
0
66
1
40
0.127
41
0.127
70
1
0
VERTEX
8
0
10
-0.0635
20
0
42
1
0
VERTEX
8
0
10
0.0635
20
0
42
1
0
SEQEND
0
ENDBLK
0
BLOCK
2
SMOOTH_0$1999993333
8
0
10
0
20
0
3
SMOOTH_0$1999993333
70
64
0
POLYLINE
8
0
66
1
40
0.0999993333
41
0.0999993333
70
1
0
VERTEX
8
0
10
-0.0499993333
20
0
42
1
0
VERTEX
8
0
10
0.0499993333
20
0
42
1
0
SEQEND
0
ENDBLK
0
BLOCK
2
SMOOTH_0$1999
8
0
10
0
20
0
3
SMOOTH_0$1999
70
64
0
POLYLINE
8
0
66
1
40
0.09995
41
0.09995
70
1
0
VERTEX
8
0
10
-0.0499746667
20
0
42
1
0
VERTEX
8
0
10
0.0499746667
20
0
42
1
0
SEQEND
0
ENDBLK
0
BLOCK
2
PAD_0
8
0
10
0
20
0
3
PAD_0
70
64
0
POLYLINE
8
0
70
1
66
1
40
1.9999993333
41
1.9999993333
0
VERTEX
8
0
10
0
20
-0.9999993333
42
1
0
VERTEX
8
0
10
0
20
0.9999993333
42
1
0
SEQEND
0
ENDBLK
0
BLOCK
2
PAD_1
8
0
10
0
20
0
3
PAD_1
70
64
0
POLYLINE
8
0
66
1
40
1
41
1
0
VERTEX
8
0
10
-0.5
20
0
0
VERTEX
8
0
10
0.5
20
0
0
SEQEND
0
ENDBLK
0
BLOCK
2
PAD_2
8
0
10
0
20
0
3
PAD_2
70
64
0
POLYLINE
8
0
70
1
66
1
40
0.5
41
0.5
0
VERTEX
8
0
10
0
20
-0.25
42
1
0
VERTEX
8
0
10
0
20
0.25
42
1
0
SEQEND
0
ENDBLK
0
BLOCK
2
PAD_3
8
0
10
0
20
0
3
PAD_3
70
64
0
POLYLINE
8
0
70
1
66
1
40
0.7999993333
41
0.7999993333
0
VERTEX
8
0
10
0
20
-0.3999993333
42
1
0
VERTEX
8
0
10
0
20
0.3999993333
42
1
0
SEQEND
0
ENDBLK
0
BLOCK
2
PAD_4
8
0
10
0
20
0
3
PAD_4
70
64
0
POLYLINE
8
0
70
1
66
1
40
0.762
41
0.762
0
VERTEX
8
0
10
0
20
-0.381
42
1
0
VERTEX
8
0
10
0
20
0.381
42
1
0
SEQEND
0
ENDBLK
0
BLOCK
2
PAD_5
8
0
10
0
20
0
3
PAD_5
70
64
0
POLYLINE
8
0
70
1
66
1
40
0.7499993333
41
0.7499993333
0
VERTEX
8
0
10
0
20
-0.3749993333
42
1
0
VERTEX
8
0
10
0
20
0.3749993333
42
1
0
SEQEND
0
ENDBLK
0
BLOCK
2
PAD_6
8
0
10
0
20
0
3
PAD_6
70
64
0
POLYLINE
8
0
70
1
66
1
40
0.45
41
0.45
0
VERTEX
8
0
10
0
20
-0.225
42
1
0
VERTEX
8
0
10
0
20
0.225
42
1
0
SEQEND
0
ENDBLK
999
*** POWERPCB  DRILL HOLE ***
0
BLOCK
2
DRIL_HOLE_3$9999993333
8
0
10
0
20
0
3
DRIL_HOLE_3$9999993333
70
64
0
POLYLINE
8
0
66
1
40
1.9999993333
41
1.9999993333
70
1
0
VERTEX
8
0
10
-0.9999993333
20
0
42
1
0
VERTEX
8
0
10
0.9999993333
20
0
42
1
0
SEQEND
0
INSERT
2
DRIL_SYMBOL_3$9999993333
8
0
10
0
20
0
0
ENDBLK
0
BLOCK
2
DRIL_HOLE_0$5999986667
8
0
10
0
20
0
3
DRIL_HOLE_0$5999986667
70
64
0
POLYLINE
8
0
66
1
40
0.2999993333
41
0.2999993333
70
1
0
VERTEX
8
0
10
-0.1499993333
20
0
42
1
0
VERTEX
8
0
10
0.1499993333
20
0
42
1
0
SEQEND
0
INSERT
2
DRIL_SYMBOL_0$5999986667
8
0
10
0
20
0
0
ENDBLK
0
BLOCK
2
DRIL_HOLE_0$8500006667
8
0
10
0
20
0
3
DRIL_HOLE_0$8500006667
70
64
0
POLYLINE
8
0
66
1
40
0.425
41
0.425
70
1
0
VERTEX
8
0
10
-0.2125
20
0
42
1
0
VERTEX
8
0
10
0.2125
20
0
42
1
0
SEQEND
0
INSERT
2
DRIL_SYMBOL_0$8500006667
8
0
10
0
20
0
0
ENDBLK
0
BLOCK
2
DRIL_HOLE_0$95
8
0
10
0
20
0
3
DRIL_HOLE_0$95
70
64
0
POLYLINE
8
0
66
1
40
0.475
41
0.475
70
1
0
VERTEX
8
0
10
-0.2375
20
0
42
1
0
VERTEX
8
0
10
0.2375
20
0
42
1
0
SEQEND
0
INSERT
2
DRIL_SYMBOL_0$95
8
0
10
0
20
0
0
ENDBLK
0
ENDSEC
0
SECTION
2
ENTITIES
999
*** POWERPCB  DBLAYER ***
0
INSERT
2
DBLAYERS
8
0
10
0
20
0
999
*** POWERPCB  BOARD ***
999
*** POWERPCB  2DLINE ***
0
INSERT
2
DRAWING_1
8
0
10
43
20
0
0
INSERT
2
DRAWING_2
8
0
10
-50.8
20
-76.2
0
INSERT
2
D_4daefgh_3
8
0
10
-4.1999993333
20
2.5
0
INSERT
2
D_4daefgh_4
8
0
10
-4.1999993333
20
0
0
INSERT
2
D_4daefgh_5
8
0
10
39.0000006667
20
-3.7249993333
0
INSERT
2
D_4defghi_6
8
0
10
4.9999973333
20
-3.6500006667
0
INSERT
2
D_4daefgh_7
8
0
10
0
20
-3.6500006667
0
INSERT
2
D_4defghi_8
8
0
10
-0.1250013333
20
-8.0999993333
0
INSERT
2
D_4defghi_9
8
0
10
-10.16
20
-3.81
999
*** POWERPCB  FREE TEXT ***
0
TEXT
8
TEXT_26
10
8.5629546667
20
12.8456153333
40
0.6999986
1
MODEL:
41
0.75
7
W0$0999993333
0
TEXT
8
TEXT_26
10
14.7543773333
20
12.8706193333
40
0.7
1
HI-IR
41
0.75
7
W0$0999993333
0
TEXT
8
TEXT_26
10
8.5543766667
20
11.095616
40
0.6999986
1
REV:
41
0.75
7
W0$0999993333
0
TEXT
8
TEXT_26
10
12.7449726667
20
11.095614
40
0.7
1
V1.0
41
0.75
7
W0$0999993333
999
*** POWERPCB  COMPONENT ***
0
INSERT
2
PART_TOP_0
8
0
10
4.9999973333
20
2.5
0
INSERT
2
PART_TOP_1
8
0
10
39.0000006667
20
2.5
0
INSERT
2
PART_TOP_2
8
0
10
35.0000006667
20
7.5
50
90
0
INSERT
2
PART_TOP_3
8
0
10
25.9999986667
20
7.5
50
270
0
INSERT
2
PART_TOP_4
8
0
10
4.9999973333
20
7.5
50
90
999
*** POWERPCB  PCB PARAMETER ***
0
INSERT
2
PCB_PARAMS
8
0
10
0
20
0
0
ENDSEC
0
EOF
